ISO-10303-21;
HEADER;
/* Generated by software containing ST-Developer
 * from STEP Tools, Inc. (www.steptools.com) 
 */

FILE_DESCRIPTION(
/* description */ (''),
/* implementation_level */ '2;1');

FILE_NAME(
/* name */ 
'C:/Users/NexxCat/Documents/GitHub/lab.ratrig.com/docs/src/cad/compone
nts/HW2128GC-Steel Ball - 12mm - Threaded M5.step',
/* time_stamp */ '2022-10-11T10:54:59+01:00',
/* author */ (''),
/* organization */ (''),
/* preprocessor_version */ 'ST-DEVELOPER v19',
/* originating_system */ 'Autodesk Translation Framework v11.7.0.108',
/* authorisation */ '');

FILE_SCHEMA (('AUTOMOTIVE_DESIGN { 1 0 10303 214 3 1 1 }'));
ENDSEC;

DATA;
#10=MECHANICAL_DESIGN_GEOMETRIC_PRESENTATION_REPRESENTATION('',(#13),#125);
#11=SHAPE_REPRESENTATION_RELATIONSHIP('SRR','None',#132,#12);
#12=ADVANCED_BREP_SHAPE_REPRESENTATION('',(#14),#124);
#13=STYLED_ITEM('',(#141),#14);
#14=MANIFOLD_SOLID_BREP('Body1',#64);
#15=FACE_BOUND('',#27,.T.);
#16=PLANE('',#85);
#17=SPHERICAL_SURFACE('',#82,6.);
#18=CYLINDRICAL_SURFACE('',#80,2.117);
#19=FACE_OUTER_BOUND('',#23,.T.);
#20=FACE_OUTER_BOUND('',#24,.T.);
#21=FACE_OUTER_BOUND('',#25,.T.);
#22=FACE_OUTER_BOUND('',#26,.T.);
#23=EDGE_LOOP('',(#47,#48,#49));
#24=EDGE_LOOP('',(#50,#51,#52,#53));
#25=EDGE_LOOP('',(#54,#55,#56));
#26=EDGE_LOOP('',(#57));
#27=EDGE_LOOP('',(#58));
#28=LINE('',#111,#30);
#29=LINE('',#115,#31);
#30=VECTOR('',#92,1.0585);
#31=VECTOR('',#97,2.117);
#32=CIRCLE('',#79,2.117);
#33=CIRCLE('',#81,2.117);
#34=CIRCLE('',#83,2.5308137066945);
#35=CIRCLE('',#84,6.);
#36=VERTEX_POINT('',#108);
#37=VERTEX_POINT('',#110);
#38=VERTEX_POINT('',#113);
#39=VERTEX_POINT('',#117);
#40=VERTEX_POINT('',#119);
#41=EDGE_CURVE('',#36,#36,#32,.T.);
#42=EDGE_CURVE('',#36,#37,#28,.T.);
#43=EDGE_CURVE('',#38,#38,#33,.T.);
#44=EDGE_CURVE('',#38,#36,#29,.T.);
#45=EDGE_CURVE('',#39,#39,#34,.T.);
#46=EDGE_CURVE('',#39,#40,#35,.T.);
#47=ORIENTED_EDGE('',*,*,#41,.F.);
#48=ORIENTED_EDGE('',*,*,#42,.T.);
#49=ORIENTED_EDGE('',*,*,#42,.F.);
#50=ORIENTED_EDGE('',*,*,#43,.F.);
#51=ORIENTED_EDGE('',*,*,#44,.T.);
#52=ORIENTED_EDGE('',*,*,#41,.T.);
#53=ORIENTED_EDGE('',*,*,#44,.F.);
#54=ORIENTED_EDGE('',*,*,#45,.F.);
#55=ORIENTED_EDGE('',*,*,#46,.T.);
#56=ORIENTED_EDGE('',*,*,#46,.F.);
#57=ORIENTED_EDGE('',*,*,#45,.T.);
#58=ORIENTED_EDGE('',*,*,#43,.T.);
#59=CONICAL_SURFACE('',#78,1.0585,1.02974425867665);
#60=ADVANCED_FACE('',(#19),#59,.F.);
#61=ADVANCED_FACE('',(#20),#18,.F.);
#62=ADVANCED_FACE('',(#21),#17,.T.);
#63=ADVANCED_FACE('',(#22,#15),#16,.T.);
#64=CLOSED_SHELL('',(#60,#61,#62,#63));
#65=DERIVED_UNIT_ELEMENT(#67,1.);
#66=DERIVED_UNIT_ELEMENT(#127,-3.);
#67=(
MASS_UNIT()
NAMED_UNIT(*)
SI_UNIT(.KILO.,.GRAM.)
);
#68=DERIVED_UNIT((#65,#66));
#69=MEASURE_REPRESENTATION_ITEM('density measure',
POSITIVE_RATIO_MEASURE(7850.),#68);
#70=PROPERTY_DEFINITION_REPRESENTATION(#75,#72);
#71=PROPERTY_DEFINITION_REPRESENTATION(#76,#73);
#72=REPRESENTATION('material name',(#74),#124);
#73=REPRESENTATION('density',(#69),#124);
#74=DESCRIPTIVE_REPRESENTATION_ITEM('Steel','Steel');
#75=PROPERTY_DEFINITION('material property','material name',#134);
#76=PROPERTY_DEFINITION('material property','density of part',#134);
#77=AXIS2_PLACEMENT_3D('placement',#106,#86,#87);
#78=AXIS2_PLACEMENT_3D('',#107,#88,#89);
#79=AXIS2_PLACEMENT_3D('',#109,#90,#91);
#80=AXIS2_PLACEMENT_3D('',#112,#93,#94);
#81=AXIS2_PLACEMENT_3D('',#114,#95,#96);
#82=AXIS2_PLACEMENT_3D('',#116,#98,#99);
#83=AXIS2_PLACEMENT_3D('',#118,#100,#101);
#84=AXIS2_PLACEMENT_3D('',#120,#102,#103);
#85=AXIS2_PLACEMENT_3D('',#121,#104,#105);
#86=DIRECTION('axis',(0.,0.,1.));
#87=DIRECTION('refdir',(1.,0.,0.));
#88=DIRECTION('center_axis',(0.,0.,1.));
#89=DIRECTION('ref_axis',(1.,0.,0.));
#90=DIRECTION('center_axis',(0.,0.,-1.));
#91=DIRECTION('ref_axis',(1.,0.,0.));
#92=DIRECTION('',(0.857167300702112,-1.04972719113862E-16,-0.515038074910054));
#93=DIRECTION('center_axis',(0.,0.,-1.));
#94=DIRECTION('ref_axis',(1.,0.,0.));
#95=DIRECTION('center_axis',(0.,0.,-1.));
#96=DIRECTION('ref_axis',(1.,0.,0.));
#97=DIRECTION('',(0.,0.,-1.));
#98=DIRECTION('center_axis',(6.12323399573677E-17,0.,1.));
#99=DIRECTION('ref_axis',(1.,0.,0.));
#100=DIRECTION('center_axis',(0.,0.,1.));
#101=DIRECTION('ref_axis',(1.,0.,0.));
#102=DIRECTION('center_axis',(1.22464679914735E-16,-1.,0.));
#103=DIRECTION('ref_axis',(-1.,-1.22464679914735E-16,0.));
#104=DIRECTION('center_axis',(0.,0.,1.));
#105=DIRECTION('ref_axis',(1.,0.,0.));
#106=CARTESIAN_POINT('',(0.,0.,0.));
#107=CARTESIAN_POINT('Origin',(-9.74542958129844E-17,5.55111512312578E-16,
-0.195883946318479));
#108=CARTESIAN_POINT('',(-2.117,8.14369239692073E-16,0.440127018922193));
#109=CARTESIAN_POINT('Origin',(-9.74542958129844E-17,5.55111512312578E-16,
0.440127018922193));
#110=CARTESIAN_POINT('',(-9.74542958129844E-17,5.55111512312578E-16,-0.831894911559151));
#111=CARTESIAN_POINT('',(-1.0585,6.84740376002326E-16,-0.195883946318479));
#112=CARTESIAN_POINT('Origin',(-9.74542958129844E-17,5.55111512312578E-16,
2.94012701892219));
#113=CARTESIAN_POINT('',(-2.117,8.14369239692073E-16,5.44012701892219));
#114=CARTESIAN_POINT('Origin',(-9.74542958129844E-17,5.55111512312578E-16,
5.44012701892219));
#115=CARTESIAN_POINT('',(-2.117,8.14369239692073E-16,2.94012701892219));
#116=CARTESIAN_POINT('Origin',(0.,0.,0.));
#117=CARTESIAN_POINT('',(-2.5308137066945,-3.09935290514166E-16,5.44012701892219));
#118=CARTESIAN_POINT('Origin',(0.,0.,5.44012701892219));
#119=CARTESIAN_POINT('',(-3.67394039744206E-16,-4.49927934798557E-32,-6.));
#120=CARTESIAN_POINT('Origin',(0.,0.,0.));
#121=CARTESIAN_POINT('Origin',(0.,0.,5.44012701892219));
#122=UNCERTAINTY_MEASURE_WITH_UNIT(LENGTH_MEASURE(0.01),#126,
'DISTANCE_ACCURACY_VALUE',
'Maximum model space distance between geometric entities at asserted c
onnectivities');
#123=UNCERTAINTY_MEASURE_WITH_UNIT(LENGTH_MEASURE(0.01),#126,
'DISTANCE_ACCURACY_VALUE',
'Maximum model space distance between geometric entities at asserted c
onnectivities');
#124=(
GEOMETRIC_REPRESENTATION_CONTEXT(3)
GLOBAL_UNCERTAINTY_ASSIGNED_CONTEXT((#122))
GLOBAL_UNIT_ASSIGNED_CONTEXT((#126,#128,#129))
REPRESENTATION_CONTEXT('','3D')
);
#125=(
GEOMETRIC_REPRESENTATION_CONTEXT(3)
GLOBAL_UNCERTAINTY_ASSIGNED_CONTEXT((#123))
GLOBAL_UNIT_ASSIGNED_CONTEXT((#126,#128,#129))
REPRESENTATION_CONTEXT('','3D')
);
#126=(
LENGTH_UNIT()
NAMED_UNIT(*)
SI_UNIT(.MILLI.,.METRE.)
);
#127=(
LENGTH_UNIT()
NAMED_UNIT(*)
SI_UNIT($,.METRE.)
);
#128=(
NAMED_UNIT(*)
PLANE_ANGLE_UNIT()
SI_UNIT($,.RADIAN.)
);
#129=(
NAMED_UNIT(*)
SI_UNIT($,.STERADIAN.)
SOLID_ANGLE_UNIT()
);
#130=SHAPE_DEFINITION_REPRESENTATION(#131,#132);
#131=PRODUCT_DEFINITION_SHAPE('',$,#134);
#132=SHAPE_REPRESENTATION('',(#77),#124);
#133=PRODUCT_DEFINITION_CONTEXT('part definition',#138,'design');
#134=PRODUCT_DEFINITION('HW2128GC','Steel Ball - 12mm - Threaded M5 v1',
#135,#133);
#135=PRODUCT_DEFINITION_FORMATION('',$,#140);
#136=PRODUCT_RELATED_PRODUCT_CATEGORY(
'Steel Ball - 12mm - Threaded M5 v1',
'Steel Ball - 12mm - Threaded M5 v1',(#140));
#137=APPLICATION_PROTOCOL_DEFINITION('international standard',
'automotive_design',2009,#138);
#138=APPLICATION_CONTEXT(
'Core Data for Automotive Mechanical Design Process');
#139=PRODUCT_CONTEXT('part definition',#138,'mechanical');
#140=PRODUCT('HW2128GC','Steel Ball - 12mm - Threaded M5 v1',$,(#139));
#141=PRESENTATION_STYLE_ASSIGNMENT((#142));
#142=SURFACE_STYLE_USAGE(.BOTH.,#143);
#143=SURFACE_SIDE_STYLE('',(#144));
#144=SURFACE_STYLE_FILL_AREA(#145);
#145=FILL_AREA_STYLE('Chrome',(#146));
#146=FILL_AREA_STYLE_COLOUR('Chrome',#147);
#147=COLOUR_RGB('Chrome',0.768627450980392,0.772549019607843,0.768627450980392);
ENDSEC;
END-ISO-10303-21;
